当前位置: 找歌谱网 TXT杏彩彩票大全 佚名歌谱专辑 needs

歌谱:needs(TXT杏彩彩票)

演唱:佚名 作词:未知 作词:未知 来源:网络转载 人气: --

"Needs," by Collective Soul
Tabbed by Gunter Voelker (effrontery@ihateclowns.com)

This is the 4th track on Collective Soul's latest effort, Dosage.
There's really not much to it. I'm sorry I'm not very good with the
names of the chords. I just figured it out by ear and I've had no
guitar instruction. Oh well.

One thing that might help a male singer whose falsetto doesn't
sound as good as Ed's is to, at the end of the song (when the
backup vocals are going "Oooo"), have another guitar player
play the backup melody (e: -7-5-3-5-3-) on his or her guitar.

Chord definitions (Tuned to Eb):

G : 320033
Em-ish : 022033
C-ish : 032033
Dsus/F#(?): 200233

Hold your pinky and ring finger on the third fret on the high E
and B strings (where they will stay for the entire duration of the
song) while your middle and index finger pick out the notes
on the A and low E.

-------3-----------3-----------3-----------3-----------3----
----------3-----------3-----------3-----------3-----------3-
----0-----------0-----------0-----------0-----------0-------
------------------------------------------------------------
-------------3-----------2----------------------------------
-3-----------------------------------2-----------3----------

All around me, I see what weakness has made
Too much tomorrow, I think I'll take all today
Am I a poison, am I a thorn in your side
Am I a picture perfect subject tonight

Chorus:

G
I don't need nobody
E-ish
I don't need the weight
C-ish
of words to find a way
G
to crash on through
G
I don't need nobody
E-ish
I just need to learn
C-ish
the depth or doubt of faith
G
to fall into

-------3-----------3-----------3-----------3-----------3----
----------3-----------3-----------3-----------3-----------3-
----0-----------0-----------0-----------0-----------0-------
------------------------------------------------------------
-------------3-----------2----------------------------------
-3-----------------------------------2-----------3----------

Here I slumber, to awaken my daze
I find convenience in this savior I save
am I a prison, am I a source of dire news
am I a picture perfect reason for you

(Chorus)

G C-ish Em-ish Dsus/F#
And in this time of substitute
It's my needs I've answered to (all the while)
And the hope that I invest
still turns to signals of distress (all the while)

-------3-----------3-----------3-----------3-----------3----
----------3-----------3-----------3-----------3-----------3-
----0-----------0-----------0-----------0-----------0-------
------------------------------------------------------------
-------------3-----------2----------------------------------
-3-----------------------------------2-----------3----------

(Chorus)
(Long-winded strings portion of song)

Em-ish, Dsus/F#, G, C-ish <----- (Begin the progression on the "Oooo" part)
Ooooo, you're all I need
Ooooo, when the water runs deep
Ooooo, you're all I need
Ooooo, now I cry my soul to sleep
You're all I need
You're all I need
etc.

Have fun.

关于《needs》的评论 (0)
此歌谱暂无评论,欢迎发表您的见解。
发表评论 若验证码看不清,点击验证码图片可以切换。
昵称: 验证码:
  
提示:请勿发表违法国家法律、伤害他人的评论信息。
相关视频推荐
Copyright (c) 2012 www.zhaogepu.com All Rights Reserved 找歌谱网 信息产业部备案号:闽ICP备09026995号
本站的乐谱和资料均为乐友提供或推荐收集整理而来,仅供学习和研究使用,版权归原作者或出版社所有。
如有侵犯您的版权,请联系我们,我们立即改正或删除。